Woman Of The World


riff 1(acoustic, gtr.1)-
E-------------------------------------------|
B--3------2---------------------------------|
G----2------2-------2----------2------------|
D------2------2-----------2h4---------------|
A----------------0-----0----------0---------|
E-------------------------------------------|
riff 2(electric, gtr.2)-
E-----------------------------------|
B-----------------------------------|
G--7--5b--r-----------7-------------|
D------------7--------7-------------|
A----------------5h7-----0----------|
E-----------------------------------|
P.M.
w/intro solo play A - D - B - C - D - E - D - B - C - A

fill 1-
E-------------------------|
B-------------------------|
G-------------------------|
D-----5-5-----5-6-7-------|
A--7--------7--------0----|
E-------------------------|

riff 3-
E----------------------------------------|
B--7b----rp5--7---5--7p5-----------------|
G--7b----rp5--7---5--7p5------------5----|
D---------------------------------5------|
A----------------------------5h7---------|
E----------------------------------------|
riff 4-
E-------------------|
B-------------------|
G-------------------|
D-------------------|
A--0--0----0--0-----|
E-------------------|(etc...)
followed by riff 5-
E------------------------------|
B------------------------------|
G-------------------------5----|
D----------------------3-------|
A--------------3--4h5----------|
E--0-h-3----5------------------|

           D                G                    A
Now I try with an open hand and a heart of sorrow(etc...)

         C             G           E
Get out all your lovin' here tonight

riff 6-
E-----------------------------------|
B-----------------------------------|
G-----------------------------------|
D-----------------------------------|
A--3p0---0--3p0---0---0-0---0-0-----|
E------3--------3-------------------|
riff 7-
E---------------|
B---------------|
G---------------|
D---------------|
A--0--0--0--0---|
E---------------|

NOTE: Those are all the riffs that I could pick out. Listen to the music to hear where they go. I may add more in the future.

Transcribed by Bryson Meunier(meunier.1@osu.edu)

Symbols used in transcription:
b = bend
r = release
h = hammer-on
p = pull-off
P.M.= palm mute


bron: tabsrus.nl

Akkoorden

D
G
A
C
E

Taal: Engels
Thema: In Love; Late Night; Passion; Relationships; Cool & Cocky; Night Driving; Guys Night Out; Partying; TGIF; Drinking; Road Trip
Sfeer: Freewheeling; Lively; Rousing; Bravado; Swaggering; Fun; Bright; Celebratory; Rowdy; Rollicking
Stijl: Album Rock; Heavy Metal; Hard Rock


remove advertisements


remove advertisements