Stormy May Day

ANGUS:
Intro
e|-------3-------1-------0------1--0--1--0--|
B|-----3-------3-------3------3--3--3--3----|
G|---0-------0-------0------0--0--0--0------|
D|------------------------------------------|
A|------------------------------------------|
E|------------------------------------------|


Basic Riff
e|--------------------------------|--------------------------------------|
B|--------------------------------|--------------------------------------|
G|--0-3-0-3-0-3-0-3/5~--3-0-3/0~--|--3/2-0-3/2-0-3/2-3/5~--3-0-3*3*3-0~--|
D|--0-3-0-3-0-3-0-3/5~--3-0-3/0~--|--3/2-0-3/2-0-3/2-3/5~--3-0-3*3*3-0~--|
A|--------------------------------|--------------------------------------|
E|--------------------------------|--------------------------------------|

Chorus Riff
e|------------------|--------------------|
B|------------------|--------------------|
G|---10/5~--3/12~---|---10/5~--15*-12~---|
D|---10/5~--3/12~---|---10/5~--15*-12~---|
A|------------------|--------------------|
E|------------------|--------------------|

MALCOLM

Intro
e|--3------------|
B|--3------------|
G|--0--5--3--0---|
D|--0--5--3--0---|
A|-----3--1--x---|
E|-----------3---|

e|---------------|
B|---------------|
G|--5--5--3--0---|
D|--3--5--3--0---|
A|-----3--1--x---|
E|-----------3---|

Taal: Engels; italian


remove advertisements


remove advertisements