Followed the Waves

Artist = Auf der Maur
Song = Followed the waves
Album = Auf der Maur

This my very first tab of Auf der Maur's album version of Followed the waves.
Listen to the cd for timings and enjoy!!!

Part 1

E --------------------------------------------------
B --------------------------------------------------
G -------14-----14-----14--14-14-14-14-15---
D ---12-----12-----12----------------------------
A --------------------------------------------------
D --------------------------------------------------

Part 2 (Played on two guitars)

(A)
E --------------------------------------------------
B --------------------------------------------------
G --17--19--21--19--17--17--19--14----------
D ---0----0---0----0---0---0----0----0----------
A --------------------------------------------------
D --------------------------------------------------

(B)
E ----------------------------------------------------
B ----------------------------------------------------
G ----------------------------------------------------
D -0-0-0-0-0-0-0--0/1---0-0-0-0-0-0-0--0/1---
A -0-0-0-0-0-0-0--0/1---0-0-0-0-0-0-0--0/1---
D -0-0-0-0-0-0-0--0/1---0-0-0-0-0-0-0--0/1---


Verse

E -------------------------------------------
B -------------------------------------------
G -------------------------------------------
D -0-0-0-0-0-0-0--0/1---0-0-0-0-0-0-0--0/1---
A -0-0-0-0-0-0-0--0/1---0-0-0-0-0-0-0--0/1---
D -0-0-0-0-0-0-0--0/1---0-0-0-0-0-0-0--0/1---

Verse Part 2
E --------------------------------------------
B --------------------------------------------
G --------------------------------------------
D --12-12-12---12-13-12---12-12-12------------ Play twice
A --12-12-12---12-13-12---12-12-12------------
D --12-12-12---12-13-12---12-12-12------------

Chorus

E -------------------------------------------
B -------------------------------------------
G -------------------------------------------
D ------7-----8---0-0---7-7-7--8-8-8--3-3----
A ----7-----8-----0-0---7-7-7--8-8-8--3-3----
D --7-----8-------0-0---7-7-7--8-8-8--3-3----


E ------------------------------------------
B ------------------------------------------
G ------------------------------------------
D --7-7-7--8-8-8--3-3----3-3--5-5--0~-------
A --7-7-7--8-8-8--3-3----3-3--5-5--0~-------
D --7-7-7--8-8-8--3-3----3-3--5-5--0~-------

After that the song goes as follows:

Part 1 (with a weird fill played over the top of it)
Part 2
Verse
Verse part 2
Verse part 2 palm muted
Chorus x2

When the chorus finishes there's some singing without music. After the first couple of lines play

Break

E ------------------------------------------------------
B ------------------------------------------------------
G ------------------------------------------------------ Play 3 times
D --1--0------------------------------------------------
A --1--0------------------------------------------------
D --1--0------------------------------------------------

Then play Part 2 before the solo, which I don't yet know (if anyone knows it let me
know). Verse Pt 2 and the chorus are repeated (just once). Play break and finish.



fuente : tabsrus.nl

engineer: Martin Schemelzle
mixer: Ben Grosse
Productor : Melissa Auf der Maur; Chris Goss
compositor : Melissa Auf der Maur
musicbrainz_work_id: 73fca1bf-f2d8-36af-83ea-04330532885f
idioma : Inglés
Estilo : Alternative Pop/Rock; Alternative/Indie Rock


remove advertisements


remove advertisements