Sometimes

Ash

-------------------------------------------------------------------------------------------
Ash - Sometimes (From The Album: Free All Angels, 2001)
-------------------------------------------------------------------------------------------

Great song by Ash, not difficult too play.
There are some racecar sounds mixed in the chorus, pretty weird but sounds
cool.
This song uses 3 guitars at times.

Normal Tuning (E-A-D-G-B-E)
Chords Used:

A   D   E   A*  Dmaj7  E6  E5  D5  A5  C#5  F#5
e|--0---2---0---5-----5-----9---------------------------------------------
B|--2---3---0---5-----7-----9---------------------------------------------
G|--2---2---1---6-----6-----9---9---7-------6-----------------------------
D|--2---0---2---7-----7-----9---9---7---7---6---4-------------------------
A|--0-------2---------5-----7---7---5---7---4---4-------------------------
E|----------0---------------------------5-------2-------------------------

----------
Intro 1
----------

Guitar 1:
Play this 2x, clean

e|-----------------------------------------------------------------------------
B|-------14------14~---------14-----14--14h15----------------------------------
G|---14------14----------14-----14---------------------------------------------
D|-----------------------------------------------------------------------------
A|-----------------------------------------------------------------------------
E|-----------------------------------------------------------------------------

Guitar 2:
Open chords, clean

 A   D   E   A

----------
Intro 2
----------

Guitar 1:
Plays these chords 1x

n.c.  D5    E5
 E5    D5    A5
 E5    D5    E5
 E5    D5    A5


Guitar 2:
Play this 1x (with distortion)

e|-----0------------------------0----------------------------0-------------------------------------
B|--------3--2--2-2-2-2------------3--2--2-2-2-2-2b-2-2---------3--2--2-2-2-2------2h3-2-----------
G|--2-------------------1~---2----------------------------2-------------------1----------2-2-4-2---
D|-------------------------------------------------------------------------------------------------
A|-------------------------------------------------------------------------------------------------
E|-------------------------------------------------------------------------------------------------

---------
Verse 1
---------

Guitar 1:
Open chords, clean

 A   D   E   A

Guitar 2:
Plays barre-chords:

A*  Dmaj7  E6  A*

Guitar 3:
(Same as intro)
Start playing this the second half of verse 1

e|-----------------------------------------------------------------------------
B|-------14------14~---------14-----14--14h15----------------------------------
G|---14------14----------14-----14---------------------------------------------
D|-----------------------------------------------------------------------------
A|-----------------------------------------------------------------------------
E|-----------------------------------------------------------------------------


Can't sleep in the city, you're far away
Cigarettes keep you skinny
And your mind off the rain
Sometimes, sometimes
Sometimes, sometimes

Feelings are distant, I know guilt by name
It was the hardest thing, watching you slip away
Sometimes, sometimes
Sometimes, sometimes

---------
Chorus
---------

Guitars 1 and 2 play powerchords, with distortion


 E5            D5               E5
Sometimes it happens, feelings die
 E5              D5                      A5
Whole years are lost in the blink of an eye
 E5             D5             E5
We once had it all but events conspired
     D5           A5
Sometimes

----------
Verse 2
----------

Good morning sweet thing, you're safe in my hands
I am no saint, but I understand
Sometimes, sometimes
Sometimes, sometimes

----------
Chorus 2
----------

Note: Different from chorus 1


 E5           D5                E5
Sometimes it happens, feelings die
 E5              D5                      A5
Whole years are lost in the blink of an eye
 E5             D5              E5
We once had it all but events conspired
     D5          A5
Sometimes
 E5             D5          E5
Now that it is over, it is through
 E5               Db5             F#5
It gets me every time I think of you
 E5            D5               E5
Sometimes it happens, feelings die
      D5          D5
Sometimes

---------
Verse 3
---------

Note: Only guitars 1 and 2 play here (Same chords as previous verses)

I miss your warm skin beside me at night
And I miss your flesh in the dawn light
Sometimes, sometimes
Sometimes, sometimes

---------
Solo
---------

Guitar 1:
Play these chords 2x (Same as Intro 2)

 E5   D5   E5
 E5   D5   A5


Guitar 2:
Plays this 1x (Same as Intro 2)

e|-----0------------------------0----------------------------0-------------------------------------
B|--------3--2--2-2-2-2------------3--2--2-2-2-2-2b-2-----------3--2--2-2-2-2------2h3-2-----------
G|--2-------------------1~---2----------------------------2-------------------1-----------2-2-4-2--
D|-------------------------------------------------------------------------------------------------
A|-------------------------------------------------------------------------------------------------
E|-------------------------------------------------------------------------------------------------

---------
Chorus
---------

 E5           D5                E5
Sometimes it happens, feelings die
 E5               D5                     A5
Whole years are lost in the blink of an eye
 E5             D5                 E5
We once had it all but events conspired
      D5         A5
Sometimes
 E5         D5               E5
Saturn's decline in my star sign
 E5          D5              A5
Seasonal adjustments, stars realign
 E5            D5               E5
Sometimes it happens, feelings die
     D5          A5
Sometimes
E5  D5 (Let ring)
sometimes




source: tabsrus.nl

Chords

A
D
E
E5
D5
A5
Db5
F#5

Language: english
Mood: Earnest; Bittersweet; Innocent; Reflective; Exuberant; Cheerful; Summery; Whimsical; Playful; Bright; Confident; Sweet
Style: Alternative Pop/Rock; Alternative/Indie Rock; Indie Pop; Punk-Pop; Britpop


remove advertisements


remove advertisements