Shining Light

Ash

ASH
SHINING LIGHT
FROM THE ALBUM FREE ALL ANGELS
2001
-------------------------------



INTRO:

   D    G    D    Bm   G   D
--10---10---10---7---10---10--
--10---12---10---7---12---10--
--11---12---11---7---12---11--
--12---12---12---9---12---12--
--12---10---12---9---10---12--
--10--------10---7--------10--


VERSE1:

   D    G    D    Bm   G   D           Bm  G    D
--10---10---10---7---10---10----------7---10---10--
--10---12---10---7---12---10----------7---12---10--
--11---12---11---7---12---11--repeat--8---12---11--
--12---12---12---9---12---12----------9---12---12--
--12---10---12---9---10---12----------9---10---12--
--10--------10---7--------10----------7--------10--


VERSE2:

Guitar1:
   D    G    D    Bm   G   D           Bm  G    D
--10---10---10---7---10---10----------7---10---10--
--10---12---10---7---12---10----------7---12---10--
--11---12---11---7---12---11--repeat--8---12---11--
--12---12---12---9---12---12----------9---12---12--
--12---10---12---9---10---12----------9---10---12--
--10--------10---7--------10----------7--------10--

Guitar2: let ring
-------------------------------------------------------------
--10------------------------10--12--10-----------------------
-----12--11--12--11--------------------12--11--12--11--------
--------------------14--12----------------------------14--12-
-------------------------------------------------------------
-------------------------------------------------------------


CHORUS:

D5  Bm5 F#m5 G5 F#m5 G5  D5  A5
-----------------------------------
-----------------------------------
-----------------------------------
--12---9---4---5---4---5---12---7--
--12---9---4---5---4---5---12---7--repeat
--10---7---2---3---2---3---10---5--


VERSE3: same as verse2


CHORUS:

Guitar1:
D5  Bm5 F#m5 G5 F#m5 G5  D5  A5
-----------------------------------
-----------------------------------
-----------------------------------
--12---9---4---5---4---5---12---7--
--12---9---4---5---4---5---12---7-- x2
--10---7---2---3---2---3---10---5--

Guitar2: starts on the 2nd time
--------------
--------------
--11p9--11----
-----------9--repeat
--------------
--------------


BRIDGE:

   B5 Bb5  A5 G#5  B5  A5  B5  A5
---------------------------------
---------------------------------
---------------------------------
--9---8---7---6---9---7---9---7--
--9---8---7---6---9---7---9---7--
--7---6---5---4---7---5---7---5--


SOLO:

Guitar1:
D5  Bm5 F#m5 G5 F#m5 G5  D5  A5
-----------------------------------
-----------------------------------
-----------------------------------
--12---9---4---5---4---5---12---7--
--12---9---4---5---4---5---12---7--=20
--10---7---2---3---2---3---10---5--

Guitar2: let ring + various effects
--14--5--10--2--------7--5---------------------------
---------------5h7--7--------------------------------
----------------------------4--2------2--------------
---------------------------------2--4---4--2--4---4~*
------------------------------------------------0----
-----------------------------------------------------

----------------------
----------------------
--2--2--4--4--2--3s8--
----------------------
----------------------
----------------------

*here guitar3 plays this:

--------------
--------------
--11p9--11----
-----------9--repeat
--------------
--------------


CHORUS: up 1/2 tone

Guitar1:
   D#5  C5   G5 G#5  G5 G#5  D#5 Bb5
------------------------------------
------------------------------------
------------------------------------
--13---10---5---6---5---6---13---8--x2
--13---10---5---6---5---6---13---8--
--11---8----3---4---3---4---11---6--

   D#5 Bb5 D#5  Bb5  D#5 Bb5  D#
-----------------------------11--
-----------------------------11--
-----------------------------12--
--13---8---13---8---13---8---13--
--13---8---13---8---13---8---13--
--11---6---11---6---11---6---11--

Guitar2: starts on the 2nd time
----------------
----------------
--12p10--12-----
------------10--repeat
----------------
----------------


source: tabsrus.nl

Chords

D
G
Bm
B5
Bb5
A5
G#5
D#5
C5
G5
D#

Language: english


remove advertisements


remove advertisements